  0
SECTION
  2
HEADER
  9
$ACADVER
  1
AC1015
  9
$ACADMAINTVER
 70
     6
  9
$DWGCODEPAGE
  3
ANSI_1254
  9
$INSBASE
 10
0.0
 20
0.0
 30
0.0
  9
$EXTMIN
 10
0.0
 20
0.0
 30
0.0
  9
$EXTMAX
 10
279.4
 20
215.9
 30
0.0
  9
$LIMMIN
 10
0.0
 20
0.0
  9
$LIMMAX
 10
279.4
 20
215.9
  9
$ORTHOMODE
 70
     0
  9
$REGENMODE
 70
     1
  9
$FILLMODE
 70
     1
  9
$QTEXTMODE
 70
     0
  9
$MIRRTEXT
 70
     1
  9
$LTSCALE
 40
1.0
  9
$ATTMODE
 70
     1
  9
$TEXTSIZE
 40
3.5
  9
$TRACEWID
 40
1.0
  9
$TEXTSTYLE
  7
Standard
  9
$CLAYER
  8
0
  9
$CELTYPE
  6
ByLayer
  9
$CECOLOR
 62
   256
  9
$CELTSCALE
 40
1.0
  9
$DISPSILH
 70
     0
  9
$DIMSCALE
 40
1.0
  9
$DIMASZ
 40
3.5
  9
$DIMEXO
 40
1.0
  9
$DIMDLI
 40
3.75
  9
$DIMRND
 40
0.0
  9
$DIMDLE
 40
0.0
  9
$DIMEXE
 40
1.0
  9
$DIMTP
 40
0.0
  9
$DIMTM
 40
0.0
  9
$DIMTXT
 40
3.5
  9
$DIMCEN
 40
2.5
  9
$DIMTSZ
 40
0.0
  9
$DIMTOL
 70
     0
  9
$DIMLIM
 70
     0
  9
$DIMTIH
 70
     1
  9
$DIMTOH
 70
     1
  9
$DIMSE1
 70
     0
  9
$DIMSE2
 70
     0
  9
$DIMTAD
 70
     1
  9
$DIMZIN
 70
     0
  9
$DIMBLK
  1

  9
$DIMASO
 70
     1
  9
$DIMSHO
 70
     1
  9
$DIMPOST
  1

  9
$DIMAPOST
  1

  9
$DIMALT
 70
     0
  9
$DIMALTD
 70
     3
  9
$DIMALTF
 40
0.0393700787
  9
$DIMLFAC
 40
1.0
  9
$DIMTOFL
 70
     1
  9
$DIMTVP
 40
0.0
  9
$DIMTIX
 70
     0
  9
$DIMSOXD
 70
     0
  9
$DIMSAH
 70
     0
  9
$DIMBLK1
  1

  9
$DIMBLK2
  1

  9
$DIMSTYLE
  2
ISO-25
  9
$DIMCLRD
 70
     0
  9
$DIMCLRE
 70
     0
  9
$DIMCLRT
 70
     0
  9
$DIMTFAC
 40
1.0
  9
$DIMGAP
 40
1.524
  9
$DIMJUST
 70
     0
  9
$DIMSD1
 70
     0
  9
$DIMSD2
 70
     0
  9
$DIMTOLJ
 70
     0
  9
$DIMTZIN
 70
     0
  9
$DIMALTZ
 70
     0
  9
$DIMALTTZ
 70
     0
  9
$DIMUPT
 70
     0
  9
$DIMDEC
 70
     2
  9
$DIMTDEC
 70
     2
  9
$DIMALTU
 70
     2
  9
$DIMALTTD
 70
     3
  9
$DIMTXSTY
  7
Standard
  9
$DIMAUNIT
 70
     0
  9
$DIMADEC
 70
     2
  9
$DIMALTRND
 40
0.0
  9
$DIMAZIN
 70
     0
  9
$DIMDSEP
 70
    44
  9
$DIMATFIT
 70
     3
  9
$DIMFRAC
 70
     0
  9
$DIMLDRBLK
  1

  9
$DIMLUNIT
 70
     2
  9
$DIMLWD
 70
    -2
  9
$DIMLWE
 70
    -2
  9
$DIMTMOVE
 70
     0
  9
$LUNITS
 70
     2
  9
$LUPREC
 70
     2
  9
$SKETCHINC
 40
1.0
  9
$FILLETRAD
 40
10.0
  9
$AUNITS
 70
     0
  9
$AUPREC
 70
     2
  9
$MENU
  1
.
  9
$ELEVATION
 40
0.0
  9
$PELEVATION
 40
0.0
  9
$THICKNESS
 40
0.0
  9
$LIMCHECK
 70
     0
  9
$CHAMFERA
 40
0.0
  9
$CHAMFERB
 40
0.0
  9
$CHAMFERC
 40
0.0
  9
$CHAMFERD
 40
0.0
  9
$SKPOLY
 70
     0
  9
$TDCREATE
 40
2458985.705810671
  9
$TDUCREATE
 40
2458985.580810671
  9
$TDUPDATE
 40
2458985.705810961
  9
$TDUUPDATE
 40
2458985.580810961
  9
$TDINDWG
 40
0.0000000116
  9
$TDUSRTIMER
 40
0.0000000116
  9
$USRTIMER
 70
     1
  9
$ANGBASE
 50
0.0
  9
$ANGDIR
 70
     0
  9
$PDMODE
 70
     0
  9
$PDSIZE
 40
-1.0
  9
$PLINEWID
 40
0.0
  9
$SPLFRAME
 70
     0
  9
$SPLINETYPE
 70
     6
  9
$SPLINESEGS
 70
     8
  9
$HANDSEED
  5
F1
  9
$SURFTAB1
 70
     6
  9
$SURFTAB2
 70
     6
  9
$SURFTYPE
 70
     6
  9
$SURFU
 70
     6
  9
$SURFV
 70
     6
  9
$UCSBASE
  2

  9
$UCSNAME
  2

  9
$UCSORG
 10
0.0
 20
0.0
 30
0.0
  9
$UCSXDIR
 10
1.0
 20
0.0
 30
0.0
  9
$UCSYDIR
 10
0.0
 20
1.0
 30
0.0
  9
$UCSORTHOREF
  2

  9
$UCSORTHOVIEW
 70
     0
  9
$UCSORGTOP
 10
0.0
 20
0.0
 30
0.0
  9
$UCSORGBOTTOM
 10
0.0
 20
0.0
 30
0.0
  9
$UCSORGLEFT
 10
0.0
 20
0.0
 30
0.0
  9
$UCSORGRIGHT
 10
0.0
 20
0.0
 30
0.0
  9
$UCSORGFRONT
 10
0.0
 20
0.0
 30
0.0
  9
$UCSORGBACK
 10
0.0
 20
0.0
 30
0.0
  9
$PUCSBASE
  2

  9
$PUCSNAME
  2

  9
$PUCSORG
 10
0.0
 20
0.0
 30
0.0
  9
$PUCSXDIR
 10
1.0
 20
0.0
 30
0.0
  9
$PUCSYDIR
 10
0.0
 20
1.0
 30
0.0
  9
$PUCSORTHOREF
  2

  9
$PUCSORTHOVIEW
 70
     0
  9
$PUCSORGTOP
 10
0.0
 20
0.0
 30
0.0
  9
$PUCSORGBOTTOM
 10
0.0
 20
0.0
 30
0.0
  9
$PUCSORGLEFT
 10
0.0
 20
0.0
 30
0.0
  9
$PUCSORGRIGHT
 10
0.0
 20
0.0
 30
0.0
  9
$PUCSORGFRONT
 10
0.0
 20
0.0
 30
0.0
  9
$PUCSORGBACK
 10
0.0
 20
0.0
 30
0.0
  9
$USERI1
 70
     0
  9
$USERI2
 70
     0
  9
$USERI3
 70
     0
  9
$USERI4
 70
     0
  9
$USERI5
 70
     0
  9
$USERR1
 40
0.0
  9
$USERR2
 40
0.0
  9
$USERR3
 40
0.0
  9
$USERR4
 40
0.0
  9
$USERR5
 40
0.0
  9
$WORLDVIEW
 70
     1
  9
$SHADEDGE
 70
     3
  9
$SHADEDIF
 70
    70
  9
$TILEMODE
 70
     1
  9
$MAXACTVP
 70
    64
  9
$PINSBASE
 10
0.0
 20
0.0
 30
0.0
  9
$PLIMCHECK
 70
     0
  9
$PEXTMIN
 10
1.0000000000E+20
 20
1.0000000000E+20
 30
1.0000000000E+20
  9
$PEXTMAX
 10
-1.0000000000E+20
 20
-1.0000000000E+20
 30
-1.0000000000E+20
  9
$PLIMMIN
 10
0.0
 20
0.0
  9
$PLIMMAX
 10
420.0
 20
297.0
  9
$UNITMODE
 70
     0
  9
$VISRETAIN
 70
     1
  9
$PLINEGEN
 70
     0
  9
$PSLTSCALE
 70
     1
  9
$TREEDEPTH
 70
  3020
  9
$CMLSTYLE
  2
Standard
  9
$CMLJUST
 70
     0
  9
$CMLSCALE
 40
20.0
  9
$PROXYGRAPHICS
 70
     1
  9
$MEASUREMENT
 70
     1
  9
$CELWEIGHT
370
    -1
  9
$ENDCAPS
280
     0
  9
$JOINSTYLE
280
     0
  9
$LWDISPLAY
290
     1
  9
$INSUNITS
 70
     4
  9
$HYPERLINKBASE
  1

  9
$STYLESHEET
  1

  9
$XEDIT
290
     1
  9
$CEPSNTYPE
380
     0
  9
$PSTYLEMODE
290
     1
  9
$FINGERPRINTGUID
  2
{3285ab1c-b76d-4cd5-b2e8-cc5bbb0b454c}
  9
$VERSIONGUID
  2
{FAEB1C32-E019-11D5-929B-00C0DF256EC4}
  9
$EXTNAMES
290
     1
  9
$PSVPSCALE
 40
0.0
  9
$OLESTARTUP
290
     0
  0
ENDSEC
  0
SECTION
  2
CLASSES
  0
CLASS
  1
ACDBDICTIONARYWDFLT
  2
AcDbDictionaryWithDefault
  3
ObjectDBX Classes
 90
        0
280
     0
281
     0
  0
CLASS
  1
VISUALSTYLE
  2
AcDbVisualStyle
  3
ObjectDBX Classes
 90
     4095
280
     0
281
     0
  0
CLASS
  1
MATERIAL
  2
AcDbMaterial
  3
ObjectDBX Classes
 90
     1153
280
     0
281
     0
  0
CLASS
  1
SCALE
  2
AcDbScale
  3
ObjectDBX Classes
 90
     1153
280
     0
281
     0
  0
CLASS
  1
TABLESTYLE
  2
AcDbTableStyle
  3
ObjectDBX Classes
 90
     4095
280
     0
281
     0
  0
CLASS
  1
MLEADERSTYLE
  2
AcDbMLeaderStyle
  3
ACDB_MLEADERSTYLE_CLASS
 90
     4095
280
     0
281
     0
  0
CLASS
  1
SUN
  2
AcDbSun
  3
SCENEOE
 90
     1153
280
     0
281
     0
  0
CLASS
  1
ACDBPLACEHOLDER
  2
AcDbPlaceHolder
  3
ObjectDBX Classes
 90
        0
280
     0
281
     0
  0
CLASS
  1
LAYOUT
  2
AcDbLayout
  3
ObjectDBX Classes
 90
        0
280
     0
281
     0
  0
ENDSEC
  0
SECTION
  2
TABLES
  0
TABLE
  2
VPORT
  5
8
330
0
100
AcDbSymbolTable
 70
     1
  0
VPORT
  5
29
330
8
100
AcDbSymbolTableRecord
100
AcDbViewportTableRecord
  2
*Active
 70
     0
 10
0.0
 20
0.0
 11
1.0
 21
1.0
 12
139.7
 22
107.95
 13
0.0
 23
0.0
 14
10.0
 24
10.0
 15
10.0
 25
10.0
 16
0.0
 26
0.0
 36
1.0
 17
0.0
 27
0.0
 37
0.0
 40
215.9
 41
1.2941176471
 42
50.0
 43
0.0
 44
0.0
 50
0.0
 51
0.0
 71
     0
 72
  2000
 73
     1
 74
     3
 75
     0
 76
     0
 77
     0
 78
     0
281
     0
 65
     1
110
0.0
120
0.0
130
0.0
111
1.0
121
0.0
131
0.0
112
0.0
122
1.0
132
0.0
 79
     0
146
0.0
  0
ENDTAB
  0
TABLE
  2
LTYPE
  5
5
330
0
100
AcDbSymbolTable
 70
     6
  0
LTYPE
  5
14
330
5
100
AcDbSymbolTableRecord
100
AcDbLinetypeTableRecord
  2
ByBlock
 70
     0
  3

 72
    65
 73
     0
 40
0.0
  0
LTYPE
  5
15
330
5
100
AcDbSymbolTableRecord
100
AcDbLinetypeTableRecord
  2
ByLayer
 70
     0
  3

 72
    65
 73
     0
 40
0.0
  0
LTYPE
  5
16
330
5
100
AcDbSymbolTableRecord
100
AcDbLinetypeTableRecord
  2
Continuous
 70
     0
  3
Solid line
 72
    65
 73
     0
 40
0.0
  0
LTYPE
  5
6E
330
5
100
AcDbSymbolTableRecord
100
AcDbLinetypeTableRecord
  2
HIDDEN
 70
     0
  3
Hidden __ __ __ __ __ __ __ __ __ __ __ __ __ __
 72
    65
 73
     2
 40
1.905
 49
1.27
 74
     0
 49
-0.635
 74
     0
  0
LTYPE
  5
6F
330
5
100
AcDbSymbolTableRecord
100
AcDbLinetypeTableRecord
  2
PHANTOM
 70
     0
  3
Phantom ______  __  __  ______  __  __  ______
 72
    65
 73
     6
 40
12.7
 49
6.35
 74
     0
 49
-1.27
 74
     0
 49
1.27
 74
     0
 49
-1.27
 74
     0
 49
1.27
 74
     0
 49
-1.27
 74
     0
  0
LTYPE
  5
70
330
5
100
AcDbSymbolTableRecord
100
AcDbLinetypeTableRecord
  2
CENTER
 70
     0
  3
Center ____ _ ____ _ ____ _ ____ _ ____ _ ____
 72
    65
 73
     4
 40
10.16
 49
6.35
 74
     0
 49
-1.27
 74
     0
 49
1.27
 74
     0
 49
-1.27
 74
     0
  0
LTYPE
  5
71
330
5
100
AcDbSymbolTableRecord
100
AcDbLinetypeTableRecord
  2
CENTERX2
 70
     0
  3
Center (2x) ________  __  ________  __  _____
 72
    65
 73
     4
 40
20.32
 49
12.7
 74
     0
 49
-2.54
 74
     0
 49
2.54
 74
     0
 49
-2.54
 74
     0
  0
LTYPE
  5
72
330
5
100
AcDbSymbolTableRecord
100
AcDbLinetypeTableRecord
  2
DOT2
 70
     0
  3
Dot (.5x) ........................................
 72
    65
 73
     2
 40
0.635
 49
0.0
 74
     0
 49
-0.635
 74
     0
  0
ENDTAB
  0
TABLE
  2
LAYER
  5
2
330
0
100
AcDbSymbolTable
 70
    17
  0
LAYER
  5
10
330
2
100
AcDbSymbolTableRecord
100
AcDbLayerTableRecord
  2
0
 70
     0
 62
     7
  6
Continuous
370
    -3
390
F
  0
LAYER
  5
73
330
2
100
AcDbSymbolTableRecord
100
AcDbLayerTableRecord
  2
FORMAT
 70
     0
 62
     7
  6
Continuous
370
    -3
390
F
  0
LAYER
  5
74
330
2
100
AcDbSymbolTableRecord
100
AcDbLayerTableRecord
  2
YARDIMCI_GEOMETRI
 70
     0
 62
    -6
  6
Continuous
290
     0
370
    -3
390
F
  0
LAYER
  5
75
330
2
100
AcDbSymbolTableRecord
100
AcDbLayerTableRecord
  2
SAYFA_CERCEVESI
 70
     0
 62
     7
  6
Continuous
370
    25
390
F
  0
LAYER
  5
76
330
2
100
AcDbSymbolTableRecord
100
AcDbLayerTableRecord
  2
ANTET
 70
     0
 62
     7
  6
Continuous
370
    -3
390
F
  0
LAYER
  5
77
330
2
100
AcDbSymbolTableRecord
100
AcDbLayerTableRecord
  2
OLCU
 70
     0
 62
   150
  6
Continuous
370
    -3
390
F
  0
LAYER
  5
78
330
2
100
AcDbSymbolTableRecord
100
AcDbLayerTableRecord
  2
METIN
 70
     0
 62
    96
  6
Continuous
370
    -3
390
F
  0
LAYER
  5
79
330
2
100
AcDbSymbolTableRecord
100
AcDbLayerTableRecord
  2
BALON
 70
     0
 62
     5
  6
Continuous
370
    -3
390
F
  0
LAYER
  5
7A
330
2
100
AcDbSymbolTableRecord
100
AcDbLayerTableRecord
  2
VURGU
 70
     0
 62
     7
  6
Continuous
370
    -3
390
F
  0
LAYER
  5
7B
330
2
100
AcDbSymbolTableRecord
100
AcDbLayerTableRecord
  2
SILIK
 70
     0
 62
     7
  6
Continuous
370
    -3
390
F
  0
LAYER
  5
7C
330
2
100
AcDbSymbolTableRecord
100
AcDbLayerTableRecord
  2
MODEL
 70
     0
 62
     7
  6
Continuous
370
    -3
390
F
  0
LAYER
  5
7D
330
2
100
AcDbSymbolTableRecord
100
AcDbLayerTableRecord
  2
DETAYLANDıRMA
 70
     0
 62
   190
  6
Continuous
370
    -3
390
F
  0
LAYER
  5
7E
330
2
100
AcDbSymbolTableRecord
100
AcDbLayerTableRecord
  2
TOLERANS
 70
     0
 62
   230
  6
Continuous
370
    -3
390
F
  0
LAYER
  5
7F
330
2
100
AcDbSymbolTableRecord
100
AcDbLayerTableRecord
  2
MERKEZ_CIZGILERI
 70
     0
 62
    30
  6
Continuous
370
    -3
390
F
  0
LAYER
  5
80
330
2
100
AcDbSymbolTableRecord
100
AcDbLayerTableRecord
  2
KESIT-DETAY_CIZGILERI
 70
     0
 62
     7
  6
Continuous
370
    -3
390
F
  0
LAYER
  5
81
330
2
100
AcDbSymbolTableRecord
100
AcDbLayerTableRecord
  2
\U+041E\U+0421\U+0415\U+0412\U+042B\U+0415
 70
     0
 62
     7
  6
Continuous
370
    -3
390
F
  0
LAYER
  5
82
330
2
100
AcDbSymbolTableRecord
100
AcDbLayerTableRecord
  2
\U+0412\U+041E\U+0414\U+042F\U+041D\U+042B\U+0415_\U+0417\U+041D\U+0410\U+041A\U+0418
 70
     0
 62
    11
  6
Continuous
370
    -3
390
F
  0
ENDTAB
  0
TABLE
  2
STYLE
  5
3
330
0
100
AcDbSymbolTable
 70
     1
  0
STYLE
  5
11
330
3
100
AcDbSymbolTableRecord
100
AcDbTextStyleTableRecord
  2
Standard
 70
     0
 40
0.0
 41
1.0
 50
0.0
 71
     0
 42
3.5
  3
txt
  4

  0
ENDTAB
  0
TABLE
  2
VIEW
  5
6
330
0
100
AcDbSymbolTable
 70
     0
  0
ENDTAB
  0
TABLE
  2
UCS
  5
7
330
0
100
AcDbSymbolTable
 70
     0
  0
ENDTAB
  0
TABLE
  2
APPID
  5
9
330
0
100
AcDbSymbolTable
 70
     1
  0
APPID
  5
12
330
9
100
AcDbSymbolTableRecord
100
AcDbRegAppTableRecord
  2
ACAD
 70
     0
  0
ENDTAB
  0
TABLE
  2
DIMSTYLE
  5
A
330
0
100
AcDbSymbolTable
 70
     1
100
AcDbDimStyleTable
  0
DIMSTYLE
105
27
330
A
100
AcDbSymbolTableRecord
100
AcDbDimStyleTableRecord
  2
ISO-25
 70
     0
 41
2.5
 42
0.625
 43
3.75
 44
1.25
 73
     0
 74
     0
 77
     1
 78
     8
140
2.5
141
2.5
143
0.0393700787
147
0.625
171
     3
172
     1
178
     0
271
     2
272
     2
274
     3
278
    44
283
     0
284
     8
340
11
  0
ENDTAB
  0
TABLE
  2
BLOCK_RECORD
  5
1
330
0
100
AcDbSymbolTable
 70
     2
  0
BLOCK_RECORD
  5
1F
330
1
100
AcDbSymbolTableRecord
100
AcDbBlockTableRecord
  2
*Model_Space
340
22
  0
BLOCK_RECORD
  5
1B
330
1
100
AcDbSymbolTableRecord
100
AcDbBlockTableRecord
  2
*Paper_Space
340
1E
  0
BLOCK_RECORD
  5
23
330
1
100
AcDbSymbolTableRecord
100
AcDbBlockTableRecord
  2
*Paper_Space0
340
26
  0
BLOCK_RECORD
  5
88
330
1
100
AcDbSymbolTableRecord
100
AcDbBlockTableRecord
  2
SW_CENTERMARKSYMBOL_0
340
0
102
{BLKREFS
331
93
102
}
  0
ENDTAB
  0
ENDSEC
  0
SECTION
  2
BLOCKS
  0
BLOCK
  5
20
330
1F
100
AcDbEntity
  8
0
100
AcDbBlockBegin
  2
*Model_Space
 70
     0
 10
0.0
 20
0.0
 30
0.0
  3
*Model_Space
  1

  0
ENDBLK
  5
21
330
1F
100
AcDbEntity
  8
0
100
AcDbBlockEnd
  0
BLOCK
  5
1C
330
1B
100
AcDbEntity
 67
     1
  8
0
100
AcDbBlockBegin
  2
*Paper_Space
 70
     0
 10
0.0
 20
0.0
 30
0.0
  3
*Paper_Space
  1

  0
ENDBLK
  5
1D
330
1B
100
AcDbEntity
 67
     1
  8
0
100
AcDbBlockEnd
  0
BLOCK
  5
24
330
23
100
AcDbEntity
  8
0
100
AcDbBlockBegin
  2
*Paper_Space0
 70
     0
 10
0.0
 20
0.0
 30
0.0
  3
*Paper_Space0
  1

  0
ENDBLK
  5
25
330
23
100
AcDbEntity
  8
0
100
AcDbBlockEnd
  0
BLOCK
  5
89
330
88
100
AcDbEntity
  8
0
100
AcDbBlockBegin
  2
SW_CENTERMARKSYMBOL_0
 70
     0
 10
0.0
 20
0.0
 30
0.0
  3
SW_CENTERMARKSYMBOL_0
  1

  0
LINE
  5
8B
330
88
100
AcDbEntity
  8
FORMAT
 62
     0
100
AcDbLine
 10
0.0
 20
0.0
 30
0.0
 11
0.0
 21
2.5
 31
0.0
  0
LINE
  5
8C
330
88
100
AcDbEntity
  8
FORMAT
 62
     0
100
AcDbLine
 10
0.0
 20
0.0
 30
0.0
 11
-2.5
 21
0.0
 31
0.0
  0
LINE
  5
8D
330
88
100
AcDbEntity
  8
FORMAT
 62
     0
100
AcDbLine
 10
0.0
 20
0.0
 30
0.0
 11
0.0
 21
-2.5
 31
0.0
  0
LINE
  5
8E
330
88
100
AcDbEntity
  8
FORMAT
 62
     0
100
AcDbLine
 10
0.0
 20
0.0
 30
0.0
 11
2.5
 21
0.0
 31
0.0
  0
LINE
  5
8F
330
88
100
AcDbEntity
  8
FORMAT
 62
     0
100
AcDbLine
 10
0.0
 20
5.0
 30
0.0
 11
0.0
 21
92.5
 31
0.0
  0
LINE
  5
90
330
88
100
AcDbEntity
  8
FORMAT
 62
     0
100
AcDbLine
 10
-5.0
 20
0.0
 30
0.0
 11
-92.5
 21
0.0
 31
0.0
  0
LINE
  5
91
330
88
100
AcDbEntity
  8
FORMAT
 62
     0
100
AcDbLine
 10
0.0
 20
-5.0
 30
0.0
 11
0.0
 21
-92.5
 31
0.0
  0
LINE
  5
92
330
88
100
AcDbEntity
  8
FORMAT
 62
     0
100
AcDbLine
 10
5.0
 20
0.0
 30
0.0
 11
92.5
 21
0.0
 31
0.0
  0
ENDBLK
  5
8A
330
88
100
AcDbEntity
  8
0
100
AcDbBlockEnd
  0
ENDSEC
  0
SECTION
  2
ENTITIES
  0
CIRCLE
  5
83
330
1F
100
AcDbEntity
  8
0
  6
Continuous
 62
     7
370
    25
100
AcDbCircle
 10
135.7204942573
 20
109.882282191
 30
0.0
 40
89.99999999999999
  0
CIRCLE
  5
84
330
1F
100
AcDbEntity
  8
0
  6
Continuous
 62
     7
370
    25
100
AcDbCircle
 10
135.7204942573
 20
109.882282191
 30
0.0
 40
79.29999999999998
  0
CIRCLE
  5
85
330
1F
100
AcDbEntity
  8
0
  6
Continuous
 62
     7
370
    25
100
AcDbCircle
 10
135.7204942573
 20
109.882282191
 30
0.0
 40
78.74567905194021
  0
CIRCLE
  5
86
330
1F
100
AcDbEntity
  8
0
  6
Continuous
 62
     7
370
    25
100
AcDbCircle
 10
135.7204942573
 20
109.882282191
 30
0.0
 40
48.95432094805975
  0
CIRCLE
  5
87
330
1F
100
AcDbEntity
  8
0
  6
Continuous
 62
     7
370
    25
100
AcDbCircle
 10
135.7204942573
 20
109.882282191
 30
0.0
 40
48.40000000000001
  0
INSERT
  5
93
330
1F
100
AcDbEntity
  8
FORMAT
 62
     7
100
AcDbBlockReference
  2
SW_CENTERMARKSYMBOL_0
 10
135.7204942573
 20
109.882282191
 30
0.0
  0
ARC
  5
94
330
1F
100
AcDbEntity
  8
0
  6
Continuous
 62
     7
370
    25
100
AcDbCircle
 10
-204.3377734286
 20
197.882282191
 30
0.0
 40
2.000000000000006
100
AcDbArc
 50
62.7648533007
 51
90.0
  0
ARC
  5
95
330
1F
100
AcDbEntity
  8
0
  6
Continuous
 62
     7
370
    25
100
AcDbCircle
 10
-204.3377734286
 20
21.882282191
 30
0.0
 40
2.000000000000006
100
AcDbArc
 50
270.0
 51
297.2351466993
  0
LINE
  5
96
330
1F
100
AcDbEntity
  8
0
  6
Continuous
 62
     7
370
    25
100
AcDbLine
 10
-204.3377734689
 20
199.8822857673
 30
0.0
 11
-308.8532719729
 21
199.8822857673
 31
0.0
  0
LINE
  5
97
330
1F
100
AcDbEntity
  8
0
  6
Continuous
 62
     7
370
    25
100
AcDbLine
 10
-308.8532719729
 20
19.8822786147
 30
0.0
 11
-204.3377734689
 21
19.8822786147
 31
0.0
  0
LINE
  5
98
330
1F
100
AcDbEntity
  8
0
  6
Continuous
 62
     7
370
    25
100
AcDbLine
 10
-203.4224864064
 20
20.1040078933
 30
0.0
 11
-136.2840604005
 21
54.6605532105
 31
0.0
  0
LINE
  5
99
330
1F
100
AcDbEntity
  8
0
  6
Continuous
 62
     7
370
    25
100
AcDbLine
 10
-136.2840604005
 20
165.1040111716
 30
0.0
 11
-203.4224864064
 21
199.6605564887
 31
0.0
  0
ARC
  5
9A
330
1F
100
AcDbEntity
  8
0
  6
Continuous
 62
     7
370
    25
100
AcDbCircle
 10
-135.368772832
 20
166.882282191
 30
0.0
 40
1.999999999999994
100
AcDbArc
 50
242.7648533007
 51
270.0
  0
ARC
  5
9B
330
1F
100
AcDbEntity
  8
0
  6
Continuous
 62
     7
370
    25
100
AcDbCircle
 10
-135.368772832
 20
52.882282191
 30
0.0
 40
2.0
100
AcDbArc
 50
90.0
 51
117.2351466993
  0
LINE
  5
9C
330
1F
100
AcDbEntity
  8
0
  6
Continuous
 62
     7
370
    25
100
AcDbLine
 10
-53.8532767413
 20
164.882281893
 30
0.0
 11
-135.3687714753
 21
164.882281893
 31
0.0
  0
LINE
  5
9D
330
1F
100
AcDbEntity
  8
0
  6
Continuous
 62
     7
370
    25
100
AcDbLine
 10
-135.3687714753
 20
54.882282489
 30
0.0
 11
-53.8532767413
 21
54.882282489
 31
0.0
  0
LINE
  5
9E
330
1F
100
AcDbEntity
  8
0
  6
Continuous
 62
     7
370
    25
100
AcDbLine
 10
-308.8532719729
 20
199.8822857673
 30
0.0
 11
-308.8532719729
 21
19.8822786147
 31
0.0
  0
LINE
  5
9F
330
1F
100
AcDbEntity
  8
0
  6
Continuous
 62
     7
370
    25
100
AcDbLine
 10
-53.8532767413
 20
164.882281893
 30
0.0
 11
-53.8532767413
 21
54.882282489
 31
0.0
  0
LINE
  5
A0
330
1F
100
AcDbEntity
  8
0
  6
Continuous
 62
     1
370
    25
100
AcDbLine
 10
-203.4224864064
 20
199.6605564887
 30
0.0
 11
-203.4224864064
 21
20.1040078933
 31
0.0
  0
LINE
  5
A1
330
1F
100
AcDbEntity
  8
0
  6
Continuous
 62
     1
370
    25
100
AcDbLine
 10
-204.3377734689
 20
199.8822857673
 30
0.0
 11
-204.3377734689
 21
19.8822786147
 31
0.0
  0
LINE
  5
A2
330
1F
100
AcDbEntity
  8
0
  6
Continuous
 62
     1
370
    25
100
AcDbLine
 10
-136.2840604005
 20
165.1040111716
 30
0.0
 11
-136.2840604005
 21
54.6605532105
 31
0.0
  0
LINE
  5
A3
330
1F
100
AcDbEntity
  8
0
  6
Continuous
 62
     1
370
    25
100
AcDbLine
 10
-135.3687714753
 20
164.882281893
 30
0.0
 11
-135.3687714753
 21
54.882282489
 31
0.0
  0
ARC
  5
A4
330
1F
100
AcDbEntity
  8
0
  6
Continuous
 62
     7
370
    25
100
AcDbCircle
 10
223.7204942573
 20
410.4276479889
 30
0.0
 40
2.000000000000019
100
AcDbArc
 50
332.7648533007
 51
0.0
  0
ARC
  5
A5
330
1F
100
AcDbEntity
  8
0
  6
Continuous
 62
     7
370
    25
100
AcDbCircle
 10
47.7204942573
 20
410.4276479889
 30
0.0
 40
2.000000000000007
100
AcDbArc
 50
180.0
 51
207.2351466993
  0
LINE
  5
A6
330
1F
100
AcDbEntity
  8
0
  6
Continuous
 62
     7
370
    25
100
AcDbLine
 10
225.7204978336
 20
410.4276480292
 30
0.0
 11
225.7204978336
 21
514.9431465332
 31
0.0
  0
LINE
  5
A7
330
1F
100
AcDbEntity
  8
0
  6
Continuous
 62
     7
370
    25
100
AcDbLine
 10
45.720490681
 20
514.9431465332
 30
0.0
 11
45.720490681
 21
410.4276480292
 31
0.0
  0
LINE
  5
A8
330
1F
100
AcDbEntity
  8
0
  6
Continuous
 62
     7
370
    25
100
AcDbLine
 10
45.9422199596
 20
409.5123609667
 30
0.0
 11
80.4987652768
 21
342.3739349608
 31
0.0
  0
LINE
  5
A9
330
1F
100
AcDbEntity
  8
0
  6
Continuous
 62
     7
370
    25
100
AcDbLine
 10
190.9422232379
 20
342.3739349608
 30
0.0
 11
225.498768555
 21
409.5123609667
 31
0.0
  0
ARC
  5
AA
330
1F
100
AcDbEntity
  8
0
  6
Continuous
 62
     7
370
    25
100
AcDbCircle
 10
192.7204942573
 20
341.4586473923
 30
0.0
 40
1.999999999999972
100
AcDbArc
 50
152.7648533007
 51
180.0
  0
ARC
  5
AB
330
1F
100
AcDbEntity
  8
0
  6
Continuous
 62
     7
370
    25
100
AcDbCircle
 10
78.7204942573
 20
341.4586473923
 30
0.0
 40
1.999999999999986
100
AcDbArc
 50
0.0
 51
27.2351466993
  0
LINE
  5
AC
330
1F
100
AcDbEntity
  8
0
  6
Continuous
 62
     7
370
    25
100
AcDbLine
 10
190.7204939593
 20
259.9431513016
 30
0.0
 11
190.7204939593
 21
341.4586460357
 31
0.0
  0
LINE
  5
AD
330
1F
100
AcDbEntity
  8
0
  6
Continuous
 62
     7
370
    25
100
AcDbLine
 10
80.7204945553
 20
341.4586460357
 30
0.0
 11
80.7204945553
 21
259.9431513016
 31
0.0
  0
LINE
  5
AE
330
1F
100
AcDbEntity
  8
0
  6
Continuous
 62
     7
370
    25
100
AcDbLine
 10
225.7204978336
 20
514.9431465332
 30
0.0
 11
45.720490681
 21
514.9431465332
 31
0.0
  0
LINE
  5
AF
330
1F
100
AcDbEntity
  8
0
  6
Continuous
 62
     7
370
    25
100
AcDbLine
 10
190.7204939593
 20
259.9431513016
 30
0.0
 11
80.7204945553
 21
259.9431513016
 31
0.0
  0
LINE
  5
B0
330
1F
100
AcDbEntity
  8
0
  6
Continuous
 62
     1
370
    25
100
AcDbLine
 10
225.498768555
 20
409.5123609667
 30
0.0
 11
45.9422199596
 21
409.5123609667
 31
0.0
  0
LINE
  5
B1
330
1F
100
AcDbEntity
  8
0
  6
Continuous
 62
     1
370
    25
100
AcDbLine
 10
225.7204978336
 20
410.4276480292
 30
0.0
 11
45.720490681
 21
410.4276480292
 31
0.0
  0
LINE
  5
B2
330
1F
100
AcDbEntity
  8
0
  6
Continuous
 62
     1
370
    25
100
AcDbLine
 10
190.9422232379
 20
342.3739349608
 30
0.0
 11
80.4987652768
 21
342.3739349608
 31
0.0
  0
LINE
  5
B3
330
1F
100
AcDbEntity
  8
0
  6
Continuous
 62
     1
370
    25
100
AcDbLine
 10
190.7204939593
 20
341.4586460357
 30
0.0
 11
80.7204945553
 21
341.4586460357
 31
0.0
  0
ARC
  5
B4
330
1F
100
AcDbEntity
  8
0
  6
Continuous
 62
     7
370
    25
100
AcDbCircle
 10
472.2299443679
 20
21.882282191
 30
0.0
 40
2.000000000000004
100
AcDbArc
 50
242.7648533007
 51
270.0
  0
ARC
  5
B5
330
1F
100
AcDbEntity
  8
0
  6
Continuous
 62
     7
370
    25
100
AcDbCircle
 10
472.2299443679
 20
197.882282191
 30
0.0
 40
2.0
100
AcDbArc
 50
90.0
 51
117.2351466993
  0
LINE
  5
B6
330
1F
100
AcDbEntity
  8
0
  6
Continuous
 62
     7
370
    25
100
AcDbLine
 10
472.2299444082
 20
19.8822786147
 30
0.0
 11
576.7454429122
 21
19.8822786147
 31
0.0
  0
LINE
  5
B7
330
1F
100
AcDbEntity
  8
0
  6
Continuous
 62
     7
370
    25
100
AcDbLine
 10
576.7454429122
 20
199.8822857673
 30
0.0
 11
472.2299444082
 21
199.8822857673
 31
0.0
  0
LINE
  5
B8
330
1F
100
AcDbEntity
  8
0
  6
Continuous
 62
     7
370
    25
100
AcDbLine
 10
471.3146573457
 20
199.6605564887
 30
0.0
 11
404.1762313398
 21
165.1040111716
 31
0.0
  0
LINE
  5
B9
330
1F
100
AcDbEntity
  8
0
  6
Continuous
 62
     7
370
    25
100
AcDbLine
 10
404.1762313398
 20
54.6605532105
 30
0.0
 11
471.3146573457
 21
20.1040078933
 31
0.0
  0
ARC
  5
BA
330
1F
100
AcDbEntity
  8
0
  6
Continuous
 62
     7
370
    25
100
AcDbCircle
 10
403.2609437713
 20
52.882282191
 30
0.0
 40
2.0
100
AcDbArc
 50
62.7648533007
 51
90.0
  0
ARC
  5
BB
330
1F
100
AcDbEntity
  8
0
  6
Continuous
 62
     7
370
    25
100
AcDbCircle
 10
403.2609437713
 20
166.882282191
 30
0.0
 40
1.999999999999994
100
AcDbArc
 50
270.0
 51
297.2351466993
  0
LINE
  5
BC
330
1F
100
AcDbEntity
  8
0
  6
Continuous
 62
     7
370
    25
100
AcDbLine
 10
321.7454476806
 20
54.882282489
 30
0.0
 11
403.2609424147
 21
54.882282489
 31
0.0
  0
LINE
  5
BD
330
1F
100
AcDbEntity
  8
0
  6
Continuous
 62
     7
370
    25
100
AcDbLine
 10
403.2609424147
 20
164.882281893
 30
0.0
 11
321.7454476806
 21
164.882281893
 31
0.0
  0
LINE
  5
BE
330
1F
100
AcDbEntity
  8
0
  6
Continuous
 62
     7
370
    25
100
AcDbLine
 10
576.7454429122
 20
109.882282191
 30
0.0
 11
576.7454429122
 21
199.8822857673
 31
0.0
  0
LINE
  5
BF
330
1F
100
AcDbEntity
  8
0
  6
Continuous
 62
     7
370
    25
100
AcDbLine
 10
576.7454429122
 20
19.8822786147
 30
0.0
 11
576.7454429122
 21
109.882282191
 31
0.0
  0
LINE
  5
C0
330
1F
100
AcDbEntity
  8
0
  6
Continuous
 62
     7
370
    25
100
AcDbLine
 10
321.7454476806
 20
109.882282191
 30
0.0
 11
321.7454476806
 21
164.882281893
 31
0.0
  0
LINE
  5
C1
330
1F
100
AcDbEntity
  8
0
  6
Continuous
 62
     7
370
    25
100
AcDbLine
 10
321.7454476806
 20
54.882282489
 30
0.0
 11
321.7454476806
 21
109.882282191
 31
0.0
  0
LINE
  5
C2
330
1F
100
AcDbEntity
  8
0
  6
Continuous
 62
     1
370
    25
100
AcDbLine
 10
471.3146573457
 20
109.882282191
 30
0.0
 11
471.3146573457
 21
199.6605564887
 31
0.0
  0
LINE
  5
C3
330
1F
100
AcDbEntity
  8
0
  6
Continuous
 62
     1
370
    25
100
AcDbLine
 10
471.3146573457
 20
20.1040078933
 30
0.0
 11
471.3146573457
 21
109.882282191
 31
0.0
  0
LINE
  5
C4
330
1F
100
AcDbEntity
  8
0
  6
Continuous
 62
     1
370
    25
100
AcDbLine
 10
472.2299444082
 20
109.882282191
 30
0.0
 11
472.2299444082
 21
199.8822857673
 31
0.0
  0
LINE
  5
C5
330
1F
100
AcDbEntity
  8
0
  6
Continuous
 62
     1
370
    25
100
AcDbLine
 10
472.2299444082
 20
19.8822786147
 30
0.0
 11
472.2299444082
 21
109.882282191
 31
0.0
  0
LINE
  5
C6
330
1F
100
AcDbEntity
  8
0
  6
Continuous
 62
     1
370
    25
100
AcDbLine
 10
404.1762313398
 20
109.882282191
 30
0.0
 11
404.1762313398
 21
165.1040111716
 31
0.0
  0
LINE
  5
C7
330
1F
100
AcDbEntity
  8
0
  6
Continuous
 62
     1
370
    25
100
AcDbLine
 10
404.1762313398
 20
54.6605532105
 30
0.0
 11
404.1762313398
 21
109.882282191
 31
0.0
  0
LINE
  5
C8
330
1F
100
AcDbEntity
  8
0
  6
Continuous
 62
     1
370
    25
100
AcDbLine
 10
403.2609424147
 20
109.882282191
 30
0.0
 11
403.2609424147
 21
164.882281893
 31
0.0
  0
LINE
  5
C9
330
1F
100
AcDbEntity
  8
0
  6
Continuous
 62
     1
370
    25
100
AcDbLine
 10
403.2609424147
 20
54.882282489
 30
0.0
 11
403.2609424147
 21
109.882282191
 31
0.0
  0
ARC
  5
CA
330
1F
100
AcDbEntity
  8
0
  6
Continuous
 62
     7
370
    25
100
AcDbCircle
 10
47.7204942573
 20
-193.3083912624
 30
0.0
 40
2.000000000000007
100
AcDbArc
 50
152.7648533007
 51
180.0
  0
ARC
  5
CB
330
1F
100
AcDbEntity
  8
0
  6
Continuous
 62
     7
370
    25
100
AcDbCircle
 10
223.7204942573
 20
-193.3083912624
 30
0.0
 40
2.000000000000032
100
AcDbArc
 50
0.0
 51
27.2351466993
  0
LINE
  5
CC
330
1F
100
AcDbEntity
  8
0
  6
Continuous
 62
     7
370
    25
100
AcDbLine
 10
45.720490681
 20
-193.3083913027
 30
0.0
 11
45.720490681
 21
-297.8238898067
 31
0.0
  0
LINE
  5
CD
330
1F
100
AcDbEntity
  8
0
  6
Continuous
 62
     7
370
    25
100
AcDbLine
 10
225.7204978336
 20
-297.8238898067
 30
0.0
 11
225.7204978336
 21
-193.3083913027
 31
0.0
  0
LINE
  5
CE
330
1F
100
AcDbEntity
  8
0
  6
Continuous
 62
     7
370
    25
100
AcDbLine
 10
225.498768555
 20
-192.3931042402
 30
0.0
 11
190.9422232379
 21
-125.2546782343
 31
0.0
  0
LINE
  5
CF
330
1F
100
AcDbEntity
  8
0
  6
Continuous
 62
     7
370
    25
100
AcDbLine
 10
80.4987652768
 20
-125.2546782343
 30
0.0
 11
45.9422199596
 21
-192.3931042402
 31
0.0
  0
ARC
  5
D0
330
1F
100
AcDbEntity
  8
0
  6
Continuous
 62
     7
370
    25
100
AcDbCircle
 10
78.7204942573
 20
-124.3393906658
 30
0.0
 40
1.999999999999994
100
AcDbArc
 50
332.7648533007
 51
0.0
  0
ARC
  5
D1
330
1F
100
AcDbEntity
  8
0
  6
Continuous
 62
     7
370
    25
100
AcDbCircle
 10
192.7204942573
 20
-124.3393906658
 30
0.0
 40
1.999999999999972
100
AcDbArc
 50
180.0
 51
207.2351466993
  0
LINE
  5
D2
330
1F
100
AcDbEntity
  8
0
  6
Continuous
 62
     7
370
    25
100
AcDbLine
 10
80.7204945553
 20
-42.8238945751
 30
0.0
 11
80.7204945553
 21
-124.3393893092
 31
0.0
  0
LINE
  5
D3
330
1F
100
AcDbEntity
  8
0
  6
Continuous
 62
     7
370
    25
100
AcDbLine
 10
190.7204939593
 20
-124.3393893092
 30
0.0
 11
190.7204939593
 21
-42.8238945751
 31
0.0
  0
LINE
  5
D4
330
1F
100
AcDbEntity
  8
0
  6
Continuous
 62
     7
370
    25
100
AcDbLine
 10
45.720490681
 20
-297.8238898067
 30
0.0
 11
225.7204978336
 21
-297.8238898067
 31
0.0
  0
LINE
  5
D5
330
1F
100
AcDbEntity
  8
0
  6
Continuous
 62
     7
370
    25
100
AcDbLine
 10
80.7204945553
 20
-42.8238945751
 30
0.0
 11
190.7204939593
 21
-42.8238945751
 31
0.0
  0
LINE
  5
D6
330
1F
100
AcDbEntity
  8
0
  6
Continuous
 62
     1
370
    25
100
AcDbLine
 10
45.9422199596
 20
-192.3931042402
 30
0.0
 11
225.498768555
 21
-192.3931042402
 31
0.0
  0
LINE
  5
D7
330
1F
100
AcDbEntity
  8
0
  6
Continuous
 62
     1
370
    25
100
AcDbLine
 10
45.720490681
 20
-193.3083913027
 30
0.0
 11
225.7204978336
 21
-193.3083913027
 31
0.0
  0
LINE
  5
D8
330
1F
100
AcDbEntity
  8
0
  6
Continuous
 62
     1
370
    25
100
AcDbLine
 10
80.4987652768
 20
-125.2546782343
 30
0.0
 11
190.9422232379
 21
-125.2546782343
 31
0.0
  0
LINE
  5
D9
330
1F
100
AcDbEntity
  8
0
  6
Continuous
 62
     1
370
    25
100
AcDbLine
 10
80.7204945553
 20
-124.3393893092
 30
0.0
 11
190.7204939593
 21
-124.3393893092
 31
0.0
  0
LINE
  5
DA
330
1F
100
AcDbEntity
  8
0
  6
Continuous
 62
     7
370
    25
100
AcDbLine
 10
493.4714045291
 20
-90.4776425203
 30
0.0
 11
419.5677867978
 21
-47.8139921254
 31
0.0
  0
LINE
  5
DB
330
1F
100
AcDbEntity
  8
0
  6
Continuous
 62
     7
370
    25
100
AcDbLine
 10
329.5750982875
 20
-203.7027888374
 30
0.0
 11
403.4787160188
 21
-246.3664392323
 31
0.0
  0
SPLINE
  5
DC
330
1F
100
AcDbEntity
  8
0
  6
Continuous
 62
     7
370
    25
100
AcDbSpline
210
0.0
220
0.0
230
1.0
 70
     8
 71
     3
 72
    11
 73
     7
 74
     0
 42
0.000000001
 43
0.00000001
 40
0.0
 40
0.0
 40
0.0
 40
0.0
 40
0.2572846359689953
 40
0.5337196358153996
 40
0.8093349421002217
 40
1.0
 40
1.0
 40
1.0
 40
1.0
 10
503.9835081656383
 20
-100.2236051172957
 30
0.0
 10
503.4725193794126
 20
-99.52229128524925
 30
0.0
 10
502.41250758406
 20
-98.06746301063268
 30
0.0
 10
500.6274138150827
 20
-96.07776554115844
 30
0.0
 10
498.895570189296
 20
-94.37448613501452
 30
0.0
 10
497.7147598711902
 20
-93.43984231068997
 30
0.0
 10
497.2319188918922
 20
-93.05766040347598
 30
0.0
  0
SPLINE
  5
DD
330
1F
100
AcDbEntity
  8
0
  6
Continuous
 62
     7
370
    25
100
AcDbSpline
210
0.0
220
0.0
230
1.0
 70
     8
 71
     3
 72
    11
 73
     7
 74
     0
 42
0.000000001
 43
0.00000001
 40
0.0
 40
0.0
 40
0.0
 40
0.0
 40
0.2590090884051342
 40
0.535414195720907
 40
0.8123886695521232
 40
1.0
 40
1.0
 40
1.0
 40
1.0
 10
407.6156017387847
 20
-248.3600231952863
 30
0.0
 10
408.3941521817892
 20
-248.6521606517327
 30
0.0
 10
410.003543426846
 20
-249.2560566086132
 30
0.0
 10
412.5630300642927
 20
-249.9160424679002
 30
0.0
 10
414.9553580320181
 20
-250.378242777458
 30
0.0
 10
416.5096381880271
 20
-250.5195051046539
 30
0.0
 10
417.1372952650875
 20
-250.5765503542144
 30
0.0
  0
LINE
  5
DE
330
1F
100
AcDbEntity
  8
0
  6
Continuous
 62
     7
370
    25
100
AcDbLine
 10
423.6557940273
 20
-250.6476680628
 30
0.0
 11
480.9321270412
 21
-246.5481987046
 31
0.0
  0
LINE
  5
DF
330
1F
100
AcDbEntity
  8
0
  6
Continuous
 62
     7
370
    25
100
AcDbLine
 10
532.3618044487
 20
-157.4597328845
 30
0.0
 11
507.2690328141
 21
-105.8095947697
 31
0.0
  0
LINE
  5
E0
330
1F
100
AcDbEntity
  8
0
  6
Continuous
 62
     7
370
    25
100
AcDbLine
 10
582.3814340145
 20
-182.2177337251
 30
0.0
 11
529.581592855
 21
-151.7370342237
 31
0.0
  0
LINE
  5
E1
330
1F
100
AcDbEntity
  8
0
  6
Continuous
 62
     7
370
    25
100
AcDbLine
 10
474.586061573
 20
-247.0024123581
 30
0.0
 11
527.3859027324
 21
-277.4831118595
 31
0.0
  0
LWPOLYLINE
  5
E2
330
1F
100
AcDbEntity
  8
0
  6
Continuous
 62
     7
370
    25
100
AcDbPolyline
 90
      121
 70
   128
 43
0.0
 10
310.931829707
 20
-162.4967569733
 10
311.0190473417
 20
-158.6003072964
 10
311.2804579012
 20
-154.6138404815
 10
311.7153396209
 20
-150.5482846928
 10
312.3225123889
 20
-146.4147779394
 10
313.100300868
 20
-142.2246562843
 10
314.0465766424
 20
-137.989403278
 10
315.1587476809
 20
-133.720623341
 10
316.4337636053
 20
-129.4300227527
 10
317.868136764
 20
-125.1293533795
 10
319.4579211582
 20
-120.8304111514
 10
321.1987756625
 20
-116.5449767523
 10
323.0859166096
 20
-112.2847943221
 10
325.1141757423
 20
-108.0615410441
 10
327.2779949449
 20
-103.8867967256
 10
329.5714420484
 20
-99.7719981718
 10
331.988231904
 20
-95.7284270205
 10
334.5217369199
 20
-91.7671671569
 10
337.1650186712
 20
-87.8990742982
 10
339.9108278997
 20
-84.1347516587
 10
342.7516361248
 20
-80.4845134506
 10
345.6796646188
 20
-76.9583742403
 10
348.6868817727
 20
-73.5659835483
 10
351.7650452435
 20
-70.3166562716
 10
354.9057217104
 20
-67.2192882742
 10
358.1002987281
 20
-64.2823738789
 10
361.3400229231
 20
-61.5139594827
 10
364.6160138227
 20
-58.9216294895
 10
367.9192921725
 20
-56.51250213
 10
371.2408026563
 20
-54.2931676766
 10
374.5714425426
 20
-52.2697144915
 10
377.902082429
 20
-50.447692717
 10
381.2235929128
 20
-48.8320927948
 10
384.5268712626
 20
-47.4273361523
 10
387.8028621622
 20
-46.2372875631
 10
391.0425863572
 20
-45.2651960226
 10
394.2371633749
 20
-44.5137303026
 10
397.3778398417
 20
-43.9849504362
 10
400.4560033126
 20
-43.6803058179
 10
403.4632204665
 20
-43.6006374888
 10
406.3912489604
 20
-43.7461469587
 10
409.2320571855
 20
-44.1164578053
 10
411.9778664141
 20
-44.7105365901
 10
414.6211481653
 20
-45.5267612997
 10
417.1546531812
 20
-46.5628985349
 10
419.5714430369
 20
-47.8161035134
 10
421.8648901404
 20
-49.2829444049
 10
424.0287093429
 20
-50.9593962498
 10
426.0569684756
 20
-52.8408713794
 10
427.9441094228
 20
-54.92220725
 10
429.6849639271
 20
-57.1976938214
 10
431.2747483213
 20
-59.6611100582
 10
432.7091214799
 20
-62.3056874334
 10
433.9841374044
 20
-65.1241859698
 10
435.0963084429
 20
-68.1088805583
 10
436.0425842173
 20
-71.251586811
 10
436.8203726964
 20
-74.5436930029
 10
437.4275454644
 20
-77.9761730001
 10
437.8624271841
 20
-81.5396250429
 10
438.1238377436
 20
-85.2242736501
 10
438.2110553782
 20
-89.0200239895
 10
438.1238377436
 20
-92.9164736664
 10
437.8624271841
 20
-96.9029404813
 10
437.4275454644
 20
-100.96849627
 10
436.8203726964
 20
-105.1020030234
 10
436.0425842173
 20
-109.2921246785
 10
435.0963084429
 20
-113.5273776848
 10
433.9841374044
 20
-117.7961576218
 10
432.7091214799
 20
-122.0867582101
 10
431.2747483213
 20
-126.3874275833
 10
429.6849639271
 20
-130.6863698113
 10
427.9441094228
 20
-134.9718042105
 10
426.0569684756
 20
-139.2319866406
 10
424.0287093429
 20
-143.4552399187
 10
421.8648901404
 20
-147.6299842372
 10
419.5714430369
 20
-151.744782791
 10
417.1546531812
 20
-155.7883539422
 10
414.6211481653
 20
-159.7496138058
 10
411.9778664141
 20
-163.6177066646
 10
409.2320571855
 20
-167.3820293041
 10
406.3912489604
 20
-171.0322675122
 10
403.4632204665
 20
-174.5584067225
 10
400.4560033126
 20
-177.9507974145
 10
397.3778398417
 20
-181.2001246912
 10
394.2371633749
 20
-184.2974926886
 10
391.0425863572
 20
-187.2344070839
 10
387.8028621622
 20
-190.00282148
 10
384.5268712626
 20
-192.5951514733
 10
381.2235929128
 20
-195.0042788328
 10
377.902082429
 20
-197.2236132862
 10
374.5714425426
 20
-199.2470664713
 10
371.2408026563
 20
-201.0690882457
 10
367.9192921725
 20
-202.684688168
 10
364.6160138227
 20
-204.0894448104
 10
361.3400229231
 20
-205.2794933997
 10
358.1002987281
 20
-206.2515849402
 10
354.9057217104
 20
-207.0030506602
 10
351.7650452435
 20
-207.5318305266
 10
348.6868817727
 20
-207.8364751449
 10
345.6796646188
 20
-207.916143474
 10
342.7516361248
 20
-207.770634004
 10
339.9108278997
 20
-207.4003231574
 10
337.1650186712
 20
-206.8062443727
 10
334.5217369199
 20
-205.9900196631
 10
331.988231904
 20
-204.9538824279
 10
329.5714420484
 20
-203.7006774493
 10
327.2779949449
 20
-202.2338365579
 10
325.1141757423
 20
-200.557384713
 10
323.0859166096
 20
-198.6759095834
 10
321.1987756625
 20
-196.5945737127
 10
319.4579211582
 20
-194.3190871413
 10
317.868136764
 20
-191.8556709045
 10
316.4337636053
 20
-189.2110935294
 10
315.1587476809
 20
-186.3925949929
 10
314.0465766424
 20
-183.4079004044
 10
313.100300868
 20
-180.2651941517
 10
312.3225123889
 20
-176.9730879599
 10
311.7153396209
 20
-173.5406079626
 10
311.2804579012
 20
-169.9771559199
 10
311.0190473417
 20
-166.2925073126
 10
310.931829707
 20
-162.4967569733
  0
LWPOLYLINE
  5
E3
330
1F
100
AcDbEntity
  8
0
  6
Continuous
 62
     7
370
    25
100
AcDbPolyline
 90
      113
 70
   128
 43
0.0
 10
318.497873901
 20
-158.128972631
 10
318.586087255
 20
-154.4473922176
 10
318.8504533622
 20
-150.6755438975
 10
319.2901398226
 20
-146.8252968971
 10
319.9037557901
 20
-142.9087683018
 10
320.6893783147
 20
-138.9382781903
 10
321.6445365374
 20
-134.9263161735
 10
322.766222227
 20
-130.8855102157
 10
324.0509055848
 20
-126.8285703625
 10
325.4945405134
 20
-122.768268969
 10
327.0925962266
 20
-118.7173722611
 10
328.840036176
 20
-114.688628166
 10
330.7313628321
 20
-110.6947130844
 10
332.7606255866
 20
-106.7481969094
 10
334.9214418262
 20
-102.8614913175
 10
337.2070127373
 20
-99.0468284767
 10
339.6101443799
 20
-95.3162123793
 10
342.1232792971
 20
-91.6813762585
 10
344.7385070523
 20
-88.1537582549
 10
347.4475984732
 20
-84.7444573127
 10
350.2420319941
 20
-81.4642088472
 10
353.1130173628
 20
-78.3233193479
 10
356.0515167144
 20
-75.3316785469
 10
359.0482880353
 20
-72.4986978263
 10
362.0938996511
 20
-69.8332957703
 10
365.1787710563
 20
-67.3438563438
 10
368.2931946463
 20
-65.0382041792
 10
371.427372596
 20
-62.9236015384
 10
374.5714425426
 20
-61.006703067
 10
377.7155124893
 20
-59.2935356461
 10
380.8496904389
 20
-57.7894934513
 10
383.9641140289
 20
-56.4993086784
 10
387.0489854341
 20
-55.4270313937
 10
390.09459705
 20
-54.5760451265
 10
393.0913683709
 20
-53.9490273281
 10
396.0298677225
 20
-53.5479489938
 10
398.9008530912
 20
-53.3740693433
 10
401.695286612
 20
-53.4279335411
 10
404.404378033
 20
-53.7093841069
 10
407.0196057882
 20
-54.2175244157
 10
409.5327407054
 20
-54.9507567235
 10
411.9358723479
 20
-55.9067760854
 10
414.2214432591
 20
-57.0825749219
 10
416.3822594987
 20
-58.4744551874
 10
418.4115222532
 20
-60.0780344568
 10
420.3028489092
 20
-61.8882702623
 10
422.0502888586
 20
-63.8994631366
 10
423.6483445718
 20
-66.1052839916
 10
425.0919795005
 20
-68.498799975
 10
426.3766628583
 20
-71.0724759954
 10
427.4983485478
 20
-73.8182112224
 10
428.4535067706
 20
-76.7273710291
 10
429.2391292952
 20
-79.790800681
 10
429.8527452626
 20
-82.9988633604
 10
430.292431723
 20
-86.3414591793
 10
430.5567978303
 20
-89.808076889
 10
430.6450111842
 20
-93.3878083318
 10
430.5567978303
 20
-97.0693887451
 10
430.292431723
 20
-100.8412370653
 10
429.8527452626
 20
-104.6914840657
 10
429.2391292952
 20
-108.608012661
 10
428.4535067706
 20
-112.5785027724
 10
427.4983485478
 20
-116.5904647893
 10
426.3766628583
 20
-120.6312707471
 10
425.0919795005
 20
-124.6882106003
 10
423.6483445718
 20
-128.7485119938
 10
422.0502888586
 20
-132.7994087017
 10
420.3028489092
 20
-136.8281527968
 10
418.4115222532
 20
-140.8220678784
 10
416.3822594987
 20
-144.7685840534
 10
414.2214432591
 20
-148.6552896453
 10
411.9358723479
 20
-152.469952486
 10
409.5327407054
 20
-156.2005685834
 10
407.0196057882
 20
-159.8354047042
 10
404.404378033
 20
-163.3630227078
 10
401.695286612
 20
-166.7723236501
 10
398.9008530912
 20
-170.0525721155
 10
396.0298677225
 20
-173.1934616149
 10
393.0913683709
 20
-176.1851024159
 10
390.09459705
 20
-179.0180831365
 10
387.0489854341
 20
-181.6834851925
 10
383.9641140289
 20
-184.172924619
 10
380.8496904389
 20
-186.4785767835
 10
377.7155124893
 20
-188.5931794244
 10
374.5714425426
 20
-190.5100778957
 10
371.427372596
 20
-192.2232453167
 10
368.2931946463
 20
-193.7272875114
 10
365.1787710563
 20
-195.0174722844
 10
362.0938996511
 20
-196.0897495691
 10
359.0482880353
 20
-196.9407358363
 10
356.0515167144
 20
-197.5677536347
 10
353.1130173628
 20
-197.968831969
 10
350.2420319941
 20
-198.1427116194
 10
347.4475984732
 20
-198.0888474217
 10
344.7385070523
 20
-197.8073968559
 10
342.1232792971
 20
-197.299256547
 10
339.6101443799
 20
-196.5660242392
 10
337.2070127373
 20
-195.6100048774
 10
334.9214418262
 20
-194.4342060409
 10
332.7606255866
 20
-193.0423257754
 10
330.7313628321
 20
-191.4387465059
 10
328.840036176
 20
-189.6285107004
 10
327.0925962266
 20
-187.6173178262
 10
325.4945405134
 20
-185.4114969712
 10
324.0509055848
 20
-183.0179809877
 10
322.766222227
 20
-180.4443049673
 10
321.6445365374
 20
-177.6985697403
 10
320.6893783147
 20
-174.7894099336
 10
319.9037557901
 20
-171.7259802818
 10
319.2901398226
 20
-168.5179176024
 10
318.8504533622
 20
-165.1753217835
 10
318.586087255
 20
-161.7087040738
 10
318.497873901
 20
-158.128972631
  0
ARC
  5
E4
330
1F
100
AcDbEntity
  8
0
  6
Continuous
 62
     7
370
    25
100
AcDbCircle
 10
478.3799893808
 20
-116.6096575687
 30
0.0
 40
30.1766966659179
100
AcDbArc
 50
51.6923648176
 51
59.9932760783
  0
LWPOLYLINE
  5
E5
330
1F
100
AcDbEntity
  8
0
  6
Continuous
 62
     7
370
    25
100
AcDbPolyline
 90
        3
 70
   128
 43
0.0
 10
407.4385704871
 20
-248.2814373445
 10
405.8918496353
 20
-247.6175328228
 10
403.4787160188
 20
-246.3664392323
  0
ARC
  5
E6
330
1F
100
AcDbEntity
  8
0
  6
Continuous
 62
     7
370
    25
100
AcDbCircle
 10
467.0211580724
 20
-125.6280797761
 30
0.0
 40
44.84456801867712
100
AcDbArc
 50
14.292831139
 51
34.2879706675
  0
ARC
  5
E7
330
1F
100
AcDbEntity
  8
0
  6
Continuous
 62
     7
370
    25
100
AcDbCircle
 10
420.8163937618
 20
-207.1075935322
 30
0.0
 40
43.63346462000063
100
AcDbArc
 50
265.4515337878
 51
286.0927553363
  0
ARC
  5
E8
330
1F
100
AcDbEntity
  8
0
  6
Continuous
 62
     7
370
    25
100
AcDbCircle
 10
506.7063238511
 20
-169.8668927914
 30
0.0
 40
28.49809294758348
100
AcDbArc
 50
17.8187080346
 51
25.8087174599
  0
LWPOLYLINE
  5
E9
330
1F
100
AcDbEntity
  8
0
  6
Continuous
 62
     7
370
    25
100
AcDbPolyline
 90
        3
 70
   128
 43
0.0
 10
484.5300204232
 20
-246.0514939582
 10
482.562269677
 20
-246.3813737871
 10
480.9321270412
 20
-246.5481987046
  0
LWPOLYLINE
  5
EA
330
1F
100
AcDbEntity
  8
0
  6
Continuous
 62
     7
370
    25
100
AcDbPolyline
 90
       49
 70
   128
 43
0.0
 10
582.3814340145
 20
-182.2177337251
 10
582.6149275552
 20
-182.3548366753
 10
584.3924340127
 20
-183.562402564
 10
586.0352997284
 20
-184.9811713452
 10
587.5360278317
 20
-186.6046677343
 10
588.8877720938
 20
-188.4254841803
 10
590.0843606357
 20
-190.4353143284
 10
591.1203380747
 20
-192.6249864843
 10
591.9909760611
 20
-194.9845092428
 10
592.6923022545
 20
-197.5031163581
 10
593.2211161285
 20
-200.1693169355
 10
593.5750047762
 20
-202.9709463841
 10
593.7523534464
 20
-205.8952204109
 10
593.7523534464
 20
-208.9287966186
 10
593.5750047762
 20
-212.0578330615
 10
593.2211161285
 20
-215.2680536457
 10
592.6923022545
 20
-218.5448097261
 10
591.9909760611
 20
-221.8731508285
 10
591.1203380747
 20
-225.2378908095
 10
590.0843606357
 20
-228.6236770564
 10
588.8877720938
 20
-232.0150589278
 10
587.5360278317
 20
-235.3965660787
 10
586.0352997284
 20
-238.7527662542
 10
584.3924340127
 20
-242.0683474159
 10
582.6149275552
 20
-245.3281785767
 10
580.710888356
 20
-248.517391927
 10
578.6890039342
 20
-251.6214330221
 10
576.5585031325
 20
-254.626134544
 10
574.3291047507
 20
-257.5177915818
 10
572.0109819845
 20
-260.2832064963
 10
569.6147097415
 20
-262.9097680027
 10
567.1512238119
 20
-265.3854838667
 10
564.6317642332
 20
-267.6990622693
 10
562.0678259
 20
-269.8399464024
 10
559.4711081846
 20
-271.7983678871
 10
556.8534587966
 20
-273.5653913507
 10
554.2268217579
 20
-275.1329505432
 10
551.6031819198
 20
-276.4938986183
 10
548.9945096459
 20
-277.6420218161
 10
546.4127089514
 20
-278.5720815695
 10
543.8695588926
 20
-279.2798392127
 10
541.3766636824
 20
-279.7620604454
 10
538.9453977013
 20
-280.0165440343
 10
536.5868547903
 20
-280.0421328354
 10
534.3117968836
 20
-279.8387069449
 10
532.1306026428
 20
-279.4071981433
 10
530.0532239924
 20
-278.7495724005
 10
528.0891439733
 20
-277.8688329138
 10
527.3859027324
 20
-277.4831118595
  0
LWPOLYLINE
  5
EB
330
1F
100
AcDbEntity
  8
0
  6
Continuous
 62
     1
370
    25
100
AcDbPolyline
 90
       59
 70
   128
 43
0.0
 10
497.0860288929
 20
-92.9301916237
 10
497.9323270742
 20
-93.6230466447
 10
499.9605862069
 20
-95.5045217743
 10
501.8477271541
 20
-97.585857645
 10
503.5885816584
 20
-99.8613442164
 10
505.1783660526
 20
-102.3247604532
 10
506.6127392112
 20
-104.9693378283
 10
507.8877551357
 20
-107.7878363648
 10
508.9999261742
 20
-110.7725309533
 10
509.9462019486
 20
-113.915237206
 10
510.7239904277
 20
-117.2073433978
 10
511.3311631957
 20
-120.6398233951
 10
511.7660449154
 20
-124.2032754378
 10
512.0274554749
 20
-127.8879240451
 10
512.1146731095
 20
-131.6836743845
 10
512.0274554749
 20
-135.5801240613
 10
511.7660449154
 20
-139.5665908763
 10
511.3311631957
 20
-143.6321466649
 10
510.7239904277
 20
-147.7656534183
 10
509.9462019486
 20
-151.9557750734
 10
508.9999261742
 20
-156.1910280797
 10
507.8877551357
 20
-160.4598080168
 10
506.6127392112
 20
-164.750408605
 10
505.1783660526
 20
-169.0510779782
 10
503.5885816584
 20
-173.3500202063
 10
501.8477271541
 20
-177.6354546054
 10
499.9605862069
 20
-181.8956370356
 10
497.9323270742
 20
-186.1188903136
 10
495.7685078717
 20
-190.2936346322
 10
493.4750607682
 20
-194.4084331859
 10
491.0582709125
 20
-198.4520043372
 10
488.5247658966
 20
-202.4132642008
 10
485.8814841454
 20
-206.2813570595
 10
483.1356749168
 20
-210.045679699
 10
480.2948666917
 20
-213.6959179071
 10
477.3668381978
 20
-217.2220571174
 10
474.3596210439
 20
-220.6144478094
 10
471.281457573
 20
-223.8637750861
 10
468.1407811062
 20
-226.9611430836
 10
464.9462040885
 20
-229.8980574788
 10
461.7064798935
 20
-232.666471875
 10
458.4304889939
 20
-235.2588018682
 10
455.1272106441
 20
-237.6679292277
 10
451.8057001603
 20
-239.8872636812
 10
448.4750602739
 20
-241.9107168662
 10
445.1444203876
 20
-243.7327386407
 10
441.8229099038
 20
-245.3483385629
 10
438.519631554
 20
-246.7530952054
 10
435.2436406544
 20
-247.9431437946
 10
432.0039164594
 20
-248.9152353351
 10
428.8093394417
 20
-249.6667010551
 10
425.6686629748
 20
-250.1954809216
 10
422.590499504
 20
-250.5001255399
 10
419.5832823501
 20
-250.5797938689
 10
416.6552538561
 20
-250.434284399
 10
413.814445631
 20
-250.0639735524
 10
411.0686364025
 20
-249.4698947676
 10
408.4253546512
 20
-248.653670058
 10
407.4385704871
 20
-248.2814373445
  0
ARC
  5
EC
330
1F
100
AcDbEntity
  8
0
  6
Continuous
 62
     1
370
    25
100
AcDbCircle
 10
523.6341497881
 20
-211.8104668828
 30
0.0
 40
133.1832501387195
100
AcDbArc
 50
136.9605384445
 51
163.0448340401
  0
LWPOLYLINE
  5
ED
330
1F
100
AcDbEntity
  8
0
  6
Continuous
 62
     1
370
    25
100
AcDbPolyline
 90
       41
 70
   128
 43
0.0
 10
510.4776355127
 20
-114.5569529472
 10
511.2178395397
 20
-117.7071410695
 10
511.8235108262
 20
-121.1311676203
 10
512.2573230696
 20
-124.6858392582
 10
512.5180908897
 20
-128.3614093991
 10
512.6050925217
 20
-132.1478090665
 10
512.5180908897
 20
-136.0346586801
 10
512.2573230696
 20
-140.0113049376
 10
511.8235108262
 20
-144.0668455303
 10
511.2178395397
 20
-148.1901652638
 10
510.4419634738
 20
-152.3699660959
 10
509.4980215811
 20
-156.5947842494
 10
508.3885900878
 20
-160.8530472417
 10
507.1167141036
 20
-165.1330776904
 10
505.6858760118
 20
-169.4231526263
 10
504.1000060062
 20
-173.7115034945
 10
502.3634452121
 20
-177.9863800298
 10
500.480950955
 20
-182.2360654662
 10
498.4576862238
 20
-186.4489160806
 10
496.2991985976
 20
-190.6133763992
 10
494.0113991718
 20
-194.7180339498
 10
491.6005678269
 20
-198.7516435963
 10
489.0733031787
 20
-202.7031442647
 10
486.4365331156
 20
-206.5617106553
 10
483.6974910904
 20
-210.3167608454
 10
480.8636792421
 20
-213.958001913
 10
477.9428657619
 20
-217.4754557932
 10
474.9430559166
 20
-220.8594881721
 10
471.8724762443
 20
-224.1008115281
 10
468.7395376754
 20
-227.1905490064
 10
465.5528302646
 20
-230.1202252939
 10
462.321087629
 20
-232.8818236496
 10
459.0531678509
 20
-235.4677604282
 10
455.7580277941
 20
-237.8709546594
 10
452.4447003843
 20
-240.084822913
 10
449.1222659626
 20
-242.1032897523
 10
445.7998315408
 20
-243.9208240447
 10
442.4865041311
 20
-245.5324421907
 10
439.1913640743
 20
-246.9337356883
 10
435.9234442962
 20
-248.1208587737
 10
432.9112920097
 20
-249.031246416
  0
LWPOLYLINE
  5
EE
330
1F
100
AcDbEntity
  8
0
  6
Continuous
 62
     1
370
    25
100
AcDbPolyline
 90
       35
 70
   128
 43
0.0
 10
533.83734981
 20
-161.1463003765
 10
534.2565660728
 20
-162.5482545737
 10
534.8615129604
 20
-165.1303520572
 10
535.2955570114
 20
-167.8512236856
 10
535.5567621051
 20
-170.6987149887
 10
535.6439613005
 20
-173.6601088264
 10
535.5567621051
 20
-176.722180712
 10
535.2955570114
 20
-179.871252997
 10
534.8615129604
 20
-183.0932612196
 10
534.2565660728
 20
-186.3738155125
 10
533.4834190154
 20
-189.6982646709
 10
532.5455251955
 20
-193.0517602204
 10
531.4470729562
 20
-196.4193259979
 10
530.1929697711
 20
-199.785918987
 10
528.7888159029
 20
-203.1365053617
 10
527.2408806951
 20
-206.4561198007
 10
525.5560814993
 20
-209.7299339266
 10
523.7419388937
 20
-212.9433308274
 10
521.8065582443
 20
-216.0819552453
 10
519.7585822891
 20
-219.1317926601
 10
517.6071582112
 20
-222.0792156746
 10
515.3618941752
 20
-224.9110669011
 10
513.0328198138
 20
-227.6146939385
 10
510.630334862
 20
-230.1780246538
 10
508.1651696438
 20
-232.5896082433
 10
505.6483363407
 20
-234.8386768253
 10
503.0910743317
 20
-236.9151830778
 10
500.5048047541
 20
-238.8098538475
 10
497.9010788904
 20
-240.5142260287
 10
495.2915256486
 20
-242.0206890492
 10
492.6877997849
 20
-243.3225147616
 10
490.1015302073
 20
-244.4138872864
 10
487.5442681983
 20
-245.2899329026
 10
485.0274348952
 20
-245.9467381992
 10
484.5300204232
 20
-246.0514939582
  0
ARC
  5
EF
330
1F
100
AcDbEntity
  8
0
  6
Continuous
 62
     1
370
    25
100
AcDbCircle
 10
525.9297563343
 20
-213.1356928129
 30
0.0
 40
133.6334324615964
100
AcDbArc
 50
139.269718875
 51
160.7356523693
  0
LWPOLYLINE
  5
F0
330
1F
100
AcDbEntity
  8
0
  6
Continuous
 62
     1
370
    25
100
AcDbPolyline
 90
       41
 70
   128
 43
0.0
 10
531.2193614362
 20
-155.1081651344
 10
531.2476129956
 20
-155.1505286102
 10
532.4442015375
 20
-157.1603587584
 10
533.4801789764
 20
-159.3500309143
 10
534.3508169628
 20
-161.7095536728
 10
535.0521431562
 20
-164.228160788
 10
535.5809570303
 20
-166.8943613654
 10
535.934845678
 20
-169.6959908141
 10
536.1121943482
 20
-172.6202648409
 10
536.1121943482
 20
-175.6538410485
 10
535.934845678
 20
-178.7828774914
 10
535.5809570303
 20
-181.9930980756
 10
535.0521431562
 20
-185.269854156
 10
534.3508169628
 20
-188.5981952585
 10
533.4801789764
 20
-191.9629352394
 10
532.4442015375
 20
-195.3487214863
 10
531.2476129956
 20
-198.7401033578
 10
529.8958687334
 20
-202.1216105086
 10
528.3951406302
 20
-205.4778106841
 10
526.7522749145
 20
-208.7933918458
 10
524.974768457
 20
-212.0532230067
 10
523.0707292578
 20
-215.2424363569
 10
521.048844836
 20
-218.3464774521
 10
518.9183440342
 20
-221.3511789739
 10
516.6889456525
 20
-224.2428360118
 10
514.3708228863
 20
-227.0082509263
 10
511.9745506433
 20
-229.6348124326
 10
509.5110647137
 20
-232.1105282967
 10
506.991605135
 20
-234.4241066992
 10
504.4276668018
 20
-236.5649908323
 10
501.8309490864
 20
-238.5234123171
 10
499.2132996984
 20
-240.2904357806
 10
496.5866626596
 20
-241.8579949731
 10
493.9630228215
 20
-243.2189430482
 10
491.3543505477
 20
-244.3670662461
 10
488.7725498532
 20
-245.2971259994
 10
486.2293997944
 20
-246.0048836427
 10
483.7365045841
 20
-246.4871048754
 10
481.3052386031
 20
-246.7415884643
 10
478.9466956921
 20
-246.7671772654
 10
478.3244053764
 20
-246.7348463498
  0
ENDSEC
  0
SECTION
  2
OBJECTS
  0
DICTIONARY
  5
C
330
0
100
AcDbDictionary
281
     1
  3
ACAD_GROUP
350
D
  3
ACAD_LAYOUT
350
1A
  3
ACAD_MLINESTYLE
350
17
  3
ACAD_PLOTSETTINGS
350
19
  3
ACAD_PLOTSTYLENAME
350
E
  3
ACAD_SCALELIST
350
47
  0
DICTIONARY
  5
D
102
{ACAD_REACTORS
330
C
102
}
330
C
100
AcDbDictionary
281
     1
  0
DICTIONARY
  5
1A
102
{ACAD_REACTORS
330
C
102
}
330
C
100
AcDbDictionary
281
     1
  3
Layout1
350
1E
  3
Layout2
350
26
  3
Model
350
22
  0
DICTIONARY
  5
17
102
{ACAD_REACTORS
330
C
102
}
330
C
100
AcDbDictionary
281
     1
  3
Standard
350
18
  0
DICTIONARY
  5
19
102
{ACAD_REACTORS
330
C
102
}
330
C
100
AcDbDictionary
281
     1
  0
ACDBDICTIONARYWDFLT
  5
E
102
{ACAD_REACTORS
330
C
102
}
330
C
100
AcDbDictionary
281
     1
  3
Normal
350
F
100
AcDbDictionaryWithDefault
340
F
  0
DICTIONARY
  5
47
102
{ACAD_REACTORS
330
C
102
}
330
C
100
AcDbDictionary
281
     1
  3
A0
350
48
  3
A1
350
49
  3
A2
350
4A
  3
A3
350
4B
  3
A4
350
4C
  3
A5
350
4D
  3
A6
350
4E
  3
A7
350
4F
  3
A8
350
50
  3
A9
350
51
  3
B0
350
52
  3
B1
350
53
  3
B2
350
54
  3
B3
350
55
  3
B4
350
56
  3
B5
350
57
  3
B6
350
58
  3
B7
350
59
  3
B8
350
5A
  3
B9
350
5B
  3
C0
350
5C
  3
C1
350
5D
  3
C2
350
5E
  3
C3
350
5F
  3
C4
350
60
  3
C5
350
61
  3
C6
350
62
  3
C7
350
63
  3
C8
350
64
  3
C9
350
65
  3
D0
350
66
  3
D1
350
67
  3
D2
350
68
  0
LAYOUT
  5
1E
102
{ACAD_REACTORS
330
1A
102
}
330
1A
100
AcDbPlotSettings
  1

  2
none_device
  4

  6

 40
0.0
 41
0.0
 42
0.0
 43
0.0
 44
0.0
 45
0.0
 46
0.0
 47
0.0
 48
0.0
 49
0.0
140
0.0
141
0.0
142
1.0
143
1.0
 70
   688
 72
     1
 73
     0
 74
     5
  7

 75
    16
147
1.0
148
0.0
149
0.0
100
AcDbLayout
  1
Layout1
 70
     1
 71
     1
 10
0.0
 20
0.0
 11
420.0
 21
297.0
 12
0.0
 22
0.0
 32
0.0
 14
1.0000000000E+20
 24
1.0000000000E+20
 34
1.0000000000E+20
 15
-1.0000000000E+20
 25
-1.0000000000E+20
 35
-1.0000000000E+20
146
0.0
 13
0.0
 23
0.0
 33
0.0
 16
1.0
 26
0.0
 36
0.0
 17
0.0
 27
1.0
 37
0.0
 76
     0
330
1B
  0
LAYOUT
  5
26
102
{ACAD_REACTORS
330
1A
102
}
330
1A
100
AcDbPlotSettings
  1

  2
none_device
  4

  6

 40
0.0
 41
0.0
 42
0.0
 43
0.0
 44
0.0
 45
0.0
 46
0.0
 47
0.0
 48
0.0
 49
0.0
140
0.0
141
0.0
142
1.0
143
1.0
 70
   688
 72
     1
 73
     0
 74
     5
  7

 75
    16
147
1.0
148
0.0
149
0.0
100
AcDbLayout
  1
Layout2
 70
     1
 71
     2
 10
0.0
 20
0.0
 11
0.0
 21
0.0
 12
0.0
 22
0.0
 32
0.0
 14
0.0
 24
0.0
 34
0.0
 15
0.0
 25
0.0
 35
0.0
146
0.0
 13
0.0
 23
0.0
 33
0.0
 16
1.0
 26
0.0
 36
0.0
 17
0.0
 27
1.0
 37
0.0
 76
     0
330
23
  0
LAYOUT
  5
22
102
{ACAD_REACTORS
330
1A
102
}
330
1A
100
AcDbPlotSettings
  1

  2
none_device
  4
Letter_(8.50_x_11.00_Inches)
  6

 40
6.35
 41
6.35
 42
6.35000508
 43
6.35000508
 44
215.9
 45
279.4
 46
0.0
 47
0.0
 48
0.0
 49
0.0
140
0.0
141
0.0
142
1.0
143
1.0
 70
  1712
 72
     1
 73
     0
 74
     0
  7

 75
     0
147
1.0
148
0.0
149
0.0
100
AcDbLayout
  1
Model
 70
     1
 71
     0
 10
0.0
 20
0.0
 11
279.4
 21
215.9
 12
0.0
 22
0.0
 32
0.0
 14
0.0
 24
0.0
 34
0.0
 15
279.4
 25
215.9
 35
0.0
146
0.0
 13
0.0
 23
0.0
 33
0.0
 16
1.0
 26
0.0
 36
0.0
 17
0.0
 27
1.0
 37
0.0
 76
     0
330
1F
331
29
  0
MLINESTYLE
  5
18
102
{ACAD_REACTORS
330
17
102
}
330
17
100
AcDbMlineStyle
  2
Standard
 70
     0
  3

 62
   256
 51
90.0
 52
90.0
 71
     2
 49
0.5
 62
   256
  6
BYLAYER
 49
-0.5
 62
   256
  6
BYLAYER
  0
ACDBPLACEHOLDER
  5
F
102
{ACAD_REACTORS
330
E
102
}
330
E
  0
SCALE
  5
48
102
{ACAD_REACTORS
330
47
102
}
330
47
100
AcDbScale
 70
     0
300
1:1
140
1.0
141
1.0
290
     1
  0
SCALE
  5
49
102
{ACAD_REACTORS
330
47
102
}
330
47
100
AcDbScale
 70
     0
300
1:2
140
1.0
141
2.0
290
     0
  0
SCALE
  5
4A
102
{ACAD_REACTORS
330
47
102
}
330
47
100
AcDbScale
 70
     0
300
1:4
140
1.0
141
4.0
290
     0
  0
SCALE
  5
4B
102
{ACAD_REACTORS
330
47
102
}
330
47
100
AcDbScale
 70
     0
300
1:5
140
1.0
141
5.0
290
     0
  0
SCALE
  5
4C
102
{ACAD_REACTORS
330
47
102
}
330
47
100
AcDbScale
 70
     0
300
1:8
140
1.0
141
8.0
290
     0
  0
SCALE
  5
4D
102
{ACAD_REACTORS
330
47
102
}
330
47
100
AcDbScale
 70
     0
300
1:10
140
1.0
141
10.0
290
     0
  0
SCALE
  5
4E
102
{ACAD_REACTORS
330
47
102
}
330
47
100
AcDbScale
 70
     0
300
1:16
140
1.0
141
16.0
290
     0
  0
SCALE
  5
4F
102
{ACAD_REACTORS
330
47
102
}
330
47
100
AcDbScale
 70
     0
300
1:20
140
1.0
141
20.0
290
     0
  0
SCALE
  5
50
102
{ACAD_REACTORS
330
47
102
}
330
47
100
AcDbScale
 70
     0
300
1:30
140
1.0
141
30.0
290
     0
  0
SCALE
  5
51
102
{ACAD_REACTORS
330
47
102
}
330
47
100
AcDbScale
 70
     0
300
1:40
140
1.0
141
40.0
290
     0
  0
SCALE
  5
52
102
{ACAD_REACTORS
330
47
102
}
330
47
100
AcDbScale
 70
     0
300
1:50
140
1.0
141
50.0
290
     0
  0
SCALE
  5
53
102
{ACAD_REACTORS
330
47
102
}
330
47
100
AcDbScale
 70
     0
300
1:100
140
1.0
141
100.0
290
     0
  0
SCALE
  5
54
102
{ACAD_REACTORS
330
47
102
}
330
47
100
AcDbScale
 70
     0
300
2:1
140
2.0
141
1.0
290
     0
  0
SCALE
  5
55
102
{ACAD_REACTORS
330
47
102
}
330
47
100
AcDbScale
 70
     0
300
4:1
140
4.0
141
1.0
290
     0
  0
SCALE
  5
56
102
{ACAD_REACTORS
330
47
102
}
330
47
100
AcDbScale
 70
     0
300
8:1
140
8.0
141
1.0
290
     0
  0
SCALE
  5
57
102
{ACAD_REACTORS
330
47
102
}
330
47
100
AcDbScale
 70
     0
300
10:1
140
10.0
141
1.0
290
     0
  0
SCALE
  5
58
102
{ACAD_REACTORS
330
47
102
}
330
47
100
AcDbScale
 70
     0
300
100:1
140
100.0
141
1.0
290
     0
  0
SCALE
  5
59
102
{ACAD_REACTORS
330
47
102
}
330
47
100
AcDbScale
 70
     0
300
1/128" = 1'-0"
140
0.0078125
141
12.0
290
     0
  0
SCALE
  5
5A
102
{ACAD_REACTORS
330
47
102
}
330
47
100
AcDbScale
 70
     0
300
1/64" = 1'-0"
140
0.015625
141
12.0
290
     0
  0
SCALE
  5
5B
102
{ACAD_REACTORS
330
47
102
}
330
47
100
AcDbScale
 70
     0
300
1/32" = 1'-0"
140
0.03125
141
12.0
290
     0
  0
SCALE
  5
5C
102
{ACAD_REACTORS
330
47
102
}
330
47
100
AcDbScale
 70
     0
300
1/16" = 1'-0"
140
0.0625
141
12.0
290
     0
  0
SCALE
  5
5D
102
{ACAD_REACTORS
330
47
102
}
330
47
100
AcDbScale
 70
     0
300
3/32" = 1'-0"
140
0.09375
141
12.0
290
     0
  0
SCALE
  5
5E
102
{ACAD_REACTORS
330
47
102
}
330
47
100
AcDbScale
 70
     0
300
1/8" = 1'-0"
140
0.125
141
12.0
290
     0
  0
SCALE
  5
5F
102
{ACAD_REACTORS
330
47
102
}
330
47
100
AcDbScale
 70
     0
300
3/16" = 1'-0"
140
0.1875
141
12.0
290
     0
  0
SCALE
  5
60
102
{ACAD_REACTORS
330
47
102
}
330
47
100
AcDbScale
 70
     0
300
1/4" = 1'-0"
140
0.25
141
12.0
290
     0
  0
SCALE
  5
61
102
{ACAD_REACTORS
330
47
102
}
330
47
100
AcDbScale
 70
     0
300
3/8" = 1'-0"
140
0.375
141
12.0
290
     0
  0
SCALE
  5
62
102
{ACAD_REACTORS
330
47
102
}
330
47
100
AcDbScale
 70
     0
300
1/2" = 1'-0"
140
0.5
141
12.0
290
     0
  0
SCALE
  5
63
102
{ACAD_REACTORS
330
47
102
}
330
47
100
AcDbScale
 70
     0
300
3/4" = 1'-0"
140
0.75
141
12.0
290
     0
  0
SCALE
  5
64
102
{ACAD_REACTORS
330
47
102
}
330
47
100
AcDbScale
 70
     0
300
1" = 1'-0"
140
1.0
141
12.0
290
     0
  0
SCALE
  5
65
102
{ACAD_REACTORS
330
47
102
}
330
47
100
AcDbScale
 70
     0
300
1-1/2" = 1'-0"
140
1.5
141
12.0
290
     0
  0
SCALE
  5
66
102
{ACAD_REACTORS
330
47
102
}
330
47
100
AcDbScale
 70
     0
300
3" = 1'-0"
140
3.0
141
12.0
290
     0
  0
SCALE
  5
67
102
{ACAD_REACTORS
330
47
102
}
330
47
100
AcDbScale
 70
     0
300
6" = 1'-0"
140
6.0
141
12.0
290
     0
  0
SCALE
  5
68
102
{ACAD_REACTORS
330
47
102
}
330
47
100
AcDbScale
 70
     0
300
1'-0" = 1'-0"
140
12.0
141
12.0
290
     0
  0
ENDSEC
  0
EOF
